مدونة قيتارة لتعليم القيتار
مدونة+ قيتارة +لتعليم القيتار كوردات+ دروس+القيتار+ و+نوتات+و+فديو+غيتار+الكو ردات+تعليم + جيتار+ برامج+قيتار+كورد+الغيتار+ كيتار+عزف+تاب+مقطوعة+
كوردات الجيتار عمرو دياب
Tamaly Maak

__Bm_____________________G____________________A_______F_______
E--------------------------------------------------------------------------------------------------
A--------------------------------------------------------------------------------------------------
D--2-4--4---4-2-4--4------2-4----------------4--------4-2----4-------------------------------------
G------0----------0------------2-0--0-0--0----2--0---- ----0---------------------------------------
B--------------------------------------------------------------------------------------------------
E--------------------------------------------------------------------------------------------------

Bm___________________________
tamaly ma3ak ma3ak 2lby ma3ak roo7y
__G________________________A___________________________________F_____
ya a3`la 7abib ya a3`la 7abiib tamaly fe baly w f alby wala bet3`eeb
G____________________A___________F___
tamaly wa7eshni law 7ata bakoon wayak

Bm________________
tamaly 7abiby bashta2lak
Bm________________
tamaly 3inay tendahlak
A_______________G_____F#_
we law 7awalaya kol el kon
A________________F____Bm
bakoon ya 7abiby me7tagalk
Bm_________
Heeeeeeeeeeh

Then play the solo part
A--------------------------------------------------------------------------------------------------
D--4--------------------------------------------------------------------------------4--------------
G--------------------------------------------------------------------------0--0-2-0----------------
B----0-2-3-----3-2-0---3-2-0-----------3-2-3-----------3-3-3--2-2-2--0-0---------------------------
E----------2-0---------------5-3-2-3-2-------0---0-0-0---------------------------------------------
_________________
 
 
 
Dm_____C
leily nhary
_Dm______C
ta3ala 7abiby
____Dm______C
la malama 7abiby
_____Dm____C
khody leek
Dm_____C
laily nhary
_Dm______C
ta3ala 7abiby
______Dm_____C
2alby yama 7abiby
_______Dm___C
khaf 3alaik

Am_____________________D
ya rait ana ashoofak 2osady
A#_______________Gm_____Am
ya rait hawak da kan 7ob 3ady
C_______A#_______Gm_____Am
ganbak 7ayaty dy agmal 7ayah


E--5-6-8-----------|-------------------|-------------------------|--------------------------------------|
A---------5-7-8----|-------------------|-------------------------|--------------------------------------|
D----------------5-|-7-7-5-7------7----|--------------8-----7----|--------------------------------------|
G------------------|----------------7--|-----7---5--7---5-----7--|-----7---5--7--5-7--------------------|
B------------------|------------------5|-6-5---5----------------5|-6-5---5-----------5-6-5-6-8----------|
E------------------|-------------------|-------------------------|-------------------------------5--8-5-|

|---------------------------------|------------------------------------|----------------------------------|
|---------------------------------|------------------------------------|----------------------------------|
|---------------------------------|------------------------------------|----------------------------------|
|---------------------------------|------------------------------------|----------------------------------|
|10------------10-----------------|-------------18-18--17-17--15-17-15-|18--18-18---15-15--13-13----------|
|----10-12-13-----12-13---12-13-12|15s17-17-17-------------------------|17--17-17---13-13--12-12--10-12-10|


|-----------------------------------------------|
|-----------------------------------------------|
|-----------------------------------------------|
|-----------------------------------------------|
|-----------------------------------------------|
|12-10-12-10-12-10-12-10-12-10-12-10-12-10-12-10|
 
 
 
والمزيد في هدا الموقع الرائع
 
 
 
 
 
 


Add a Comment



Add a Comment

<<Home